АвторСообщение



Не зарегистрирован
ссылка на сообщение  Отправлено: 17.06.05 13:36. Заголовок: АККОРДЫ


Кто нибудь побирал аккорды на песни этой группы? Если несложно выложите... Или вобще отдельно лучше создать раздел аккордов. Заранее благодарен!

Спасибо: 0 
Цитата Ответить
Ответов - 70 , стр: 1 2 3 All [только новые]





Не зарегистрирован
Рейтинг: 0
ссылка на сообщение  Отправлено: 19.06.05 15:09. Заголовок: Re:


Alexi

а может и мидишник имеется ? не поделишься ? ;)

Спасибо: 0 
ПрофильЦитата Ответить



Не зарегистрирован
Рейтинг: 0
ссылка на сообщение  Отправлено: 20.06.05 06:53. Заголовок: Re:


мидишник я так и не доделал. времени как-то нет :(

Спасибо: 0 
ПрофильЦитата Ответить



Не зарегистрирован
ссылка на сообщение  Отправлено: 20.06.05 23:04. Заголовок: Re:


ну так что с аккордами?

Спасибо: 0 
Цитата Ответить



Не зарегистрирован
Рейтинг: 0
ссылка на сообщение  Отправлено: 21.06.05 11:30. Заголовок: Re:


Nikel
хе-хе... типа того.

frodo
подожди немного.

Спасибо: 0 
ПрофильЦитата Ответить



Не зарегистрирован
ссылка на сообщение  Отправлено: 21.06.05 12:59. Заголовок: Re:


ждем-с

Спасибо: 0 
Цитата Ответить



Не зарегистрирован
ссылка на сообщение  Отправлено: 21.06.05 13:01. Заголовок: Re:


особенно хотелось бы увидеть аккорды на песню "Звезда в окне" , она вне конкуренции...

Спасибо: 0 
Цитата Ответить



Не зарегистрирован
Рейтинг: 0
ссылка на сообщение  Отправлено: 21.06.05 22:48. Заголовок: Re:


Звезда в окне
Intro & Chorus 1, 4:
Em Esus4 Em Em Esus4 Em
D Dsus4 D D Dsus4 D
C Cadd11+ C C Cadd11+ C
D Dsus4 Em

Verse:
Em C D
Em C D Dsus4
Em C D
Em C D Dsus4

Bridge:
C G D Dsus4
C G D Dsus4 D Dsus4

Chorus 2, 3:
Em Esus4 Em Em Esus4 Em
D Dsus4 D D Dsus4 D
C Cadd11+ C C Cadd11+ C
D Dsus4

Keyboard Solo:
Em C D A - 4 times

Guitar Solo:
C G D - 2 times

Спасибо: 0 
ПрофильЦитата Ответить



Не зарегистрирован
Рейтинг: 0
ссылка на сообщение  Отправлено: 21.06.05 22:48. Заголовок: Re:


Вера
Intro, Fills:
Dm C Bb A

Verse:
Dm C Bb A - 4 times

Chorus:
Dm Bb C - 4 times

Guitar Solo:
Dm C Bb A
Gm C Bb C
Dm C Bb Bb A A - 2 times

Outro:
D

Спасибо: 0 
ПрофильЦитата Ответить



Не зарегистрирован
ссылка на сообщение  Отправлено: 23.06.05 02:41. Заголовок: Re:


Спасибки большое.. А на зверя если можно ещё..

Спасибо: 0 
Цитата Ответить
администратор


Не зарегистрирован
Рейтинг: 0
ссылка на сообщение  Отправлено: 12.07.05 14:49. Заголовок: Re:


Эээээх, память моя девичьяяяяяяяя... забыл их… На досуге надо будет повспоминать

Спасибо: 0 
ПрофильЦитата Ответить



Не зарегистрирован
Рейтинг: 0
ссылка на сообщение  Отправлено: 12.07.05 16:55. Заголовок: Re:


На Зверя выложу на той неделе. или в выходные.

Спасибо: 0 
ПрофильЦитата Ответить



Не зарегистрирован
Рейтинг: 0
ссылка на сообщение  Отправлено: 13.07.05 12:55. Заголовок: Re:


Alexi
История продолжается

Спасибо: 0 
ПрофильЦитата Ответить



Не зарегистрирован
Рейтинг: 0
ссылка на сообщение  Отправлено: 14.07.05 17:32. Заголовок: Re:


Не впускай зверя в дверь

Intro, Fills, Chorus:
Dm Bb Gm A A7 - 4 times

Verse:
Dm C A Bb
Dm C A Bb A

Спасибо: 0 
ПрофильЦитата Ответить



Не зарегистрирован
ссылка на сообщение  Отправлено: 02.09.05 12:02. Заголовок: Аккорды Форт Роял


Скажите, где можно найти GP4 или MIDI этой замечательной группы?

Спасибо: 0 
Цитата Ответить



Не зарегистрирован
Рейтинг: 0
ссылка на сообщение  Отправлено: 02.09.05 14:50. Заголовок: Re:


А нигде нельзя. некогда мне ;)))

Спасибо: 0 
ПрофильЦитата Ответить





Не зарегистрирован
Рейтинг: 0
ссылка на сообщение  Отправлено: 14.09.05 16:20. Заголовок: Re:


есть аккустические записи в моем исполнение, но не дам :-D
Хотя на слух с них снимать удобно...

Спасибо: 0 
ПрофильЦитата Ответить
администратор




Не зарегистрирован
Рейтинг: 0
ссылка на сообщение  Отправлено: 14.09.05 19:43. Заголовок: Re:


Mortalis Deus Dark

ты для фан-арта обещал предоставить. :)

Спасибо: 0 
ПрофильЦитата Ответить





Не зарегистрирован
Рейтинг: 0
ссылка на сообщение  Отправлено: 21.09.05 08:59. Заголовок: Re:


Блин... Припомнил.... Ты песни Форта фальцетом хаченшь услышать ? ;-)
У тебя аккордов на Абордажную Команду есть?

Спасибо: 0 
ПрофильЦитата Ответить





Не зарегистрирован
Рейтинг: 0
ссылка на сообщение  Отправлено: 21.09.05 09:01. Заголовок: Re:


А на Абордажную Команду, Злые языки и Не ангел не демон выложить моджешь? ;-)

Спасибо: 0 
ПрофильЦитата Ответить



Не зарегистрирован
Рейтинг: 0
ссылка на сообщение  Отправлено: 21.09.05 14:10. Заголовок: Re:


могу :)
через некоторое время, конечно...

Спасибо: 0 
ПрофильЦитата Ответить
администратор




Не зарегистрирован
Рейтинг: 0
ссылка на сообщение  Отправлено: 22.09.05 10:35. Заголовок: Re:


Mortalis Deus Dark

хочу, нету.

Спасибо: 0 
ПрофильЦитата Ответить



Не зарегистрирован
Рейтинг: 0
ссылка на сообщение  Отправлено: 30.09.05 21:37. Заголовок: Re:


Не ангел, не демон

Intro, Fills:
Am C G F

Verse:
Am Am Dm Dm7 E E7 F F7 - 2 times

Chorus:
Dm E Am F - 3 times
Dm E F

Outro:
Am

Спасибо: 0 
ПрофильЦитата Ответить



Не зарегистрирован
Рейтинг: 0
ссылка на сообщение  Отправлено: 02.10.05 02:42. Заголовок: Re:


Alexi
Спасибо огромное за твой труд !


Штирлиц заходит к Борману - смотрит: тот сидит в валенках, шапке ушанке, телогрейке и играет на балалайке.
- Что с вами, штурмбаннфюрер?
- Да ладно вам, Штирлиц, не вы же один скучаете по Родине.



Спасибо: 0 
ПрофильЦитата Ответить



Не зарегистрирован
Рейтинг: 0
ссылка на сообщение  Отправлено: 02.10.05 09:27. Заголовок: Re:


как всегда, дополнения и исправления приветствуются...

Спасибо: 0 
ПрофильЦитата Ответить





Не зарегистрирован
Рейтинг: 0
ссылка на сообщение  Отправлено: 04.10.05 16:02. Заголовок: Re:


обойдешься :-D

Спасибо: 0 
ПрофильЦитата Ответить





Не зарегистрирован
Рейтинг: 0
ссылка на сообщение  Отправлено: 14.10.05 08:28. Заголовок: Re:


Спасибо... А Абордажная Команда ? ;-)

Спасибо: 0 
ПрофильЦитата Ответить
администратор


Не зарегистрирован
Рейтинг: 0
ссылка на сообщение  Отправлено: 12.12.05 13:27. Заголовок: Re:


Вот я щас обе гитару сделаю работоспособными или третью заберу, потому что четвёртая всё равно не строит, и буду дополнять :)

P.S. побыстрее бы

Спасибо: 0 
ПрофильЦитата Ответить



Не зарегистрирован
Рейтинг: 0
ссылка на сообщение  Отправлено: 12.03.06 23:26. Заголовок: Иногда стоит прислушатся к тишине , она может рассказать больше


ЛЮДИ ВЫЛОЖИТЕ АККОРДЫ НА "Чужие сны "

Спасибо: 0 
ПрофильЦитата Ответить



Не зарегистрирован
Рейтинг: 0
ссылка на сообщение  Отправлено: 12.03.06 23:28. Заголовок: Re:


И ес можно Табы еще

Спасибо: 0 
ПрофильЦитата Ответить



Не зарегистрирован
Рейтинг: 0
ссылка на сообщение  Отправлено: 13.03.06 08:49. Заголовок: Re:


Немного коряво, но все-таки... аккорды будут позже, когда струны поставлю.
Чужие сны (Intro + Verse 1)

E||----------|--------4-----------5-----|--------4-----5--4--------|
B||----------|-----7-----7-----7-----7--|-----5-----5--------5-----|
G||----------|--6-----------6-----------|--4--------------------4--|
D||----------|--------------------------|--------------------------|
A||----------|--------------------------|--------------------------|
E||----------|--------------------------|--------------------------|



--------2-----4--2--------|--5--4--------5--4--------|
-----3-----3--------3-----|--------5-----------5-----|
--2--------------------2--|-----------4-----------4--|
--------------------------|--------------------------|
--------------------------|--------------------------|
--------------------------|--------------------------|



--------4-----------5-----|--------4-----5--4--------|
-----7-----7-----7-----7--|-----5-----5--------5-----|
--6-----------6-----------|--4--------------------4--|
--------------------------|--------------------------|
--------------------------|--------------------------|
--------------------------|--------------------------|



--------2-----4--2--------|--5--4--------------------|--5--------7--------|
-----3-----3--------3-----|--------5-----7--5--------|--5--------7--------|
--2--------------------2--|-----------4--------6--4--|--6--------8--------|
--------------------------|--------------------------|--7--------9--------|
--------------------------|--------------------------|--7--------9--------|
--------------------------|--------------------------|--5--------7--------|



--------9----------------|--5--------7--------|--7----7--------------|
--10---------10----------|--7--------9--------|--7---------7---------|
--11---------------11----|--7--------9--------|--7--------------7----|
--11---------------------|--7--------9--------|--9-------------------|
--9----------------------|--5--------7--------|--9-------------------|
-------------------------|--------------------|--7-------------------|



--5--------7--------|--------9----------------|--5--------7--------|
--5--------7--------|--10---------10----------|--7--------9--------|
--6--------8--------|--11---------------11----|--7--------9--------|
--7--------9--------|--11---------------------|--7--------9--------|
--7--------9--------|--9----------------------|--5--------7--------|
--5--------7--------|-------------------------|--------------------|



--5--------4--------|
--7--------6--------|
--7--------6--------|
--7--------6--------|
--5--------4--------|
--------------------|

Спасибо: 0 
ПрофильЦитата Ответить
Ответов - 70 , стр: 1 2 3 All [только новые]
Ответ:
1 2 3 4 5 6 7 8 9
видео с youtube.com картинка из интернета картинка с компьютера ссылка файл с компьютера русская клавиатура транслитератор  цитата  кавычки оффтопик свернутый текст

показывать это сообщение только модераторам
не делать ссылки активными
Имя, пароль:      зарегистрироваться    
Тему читают:
- участник сейчас на форуме
- участник вне форума
Все даты в формате GMT  6 час. Хитов сегодня: 20
Права: смайлы да, картинки да, шрифты нет, голосования нет
аватары да, автозамена ссылок вкл, премодерация откл, правка нет



Создай свой форум на сервисе Borda.ru
Текстовая версия